  0
SECTION
  2
HEADER
  9
$ACADVER
  1
AC1015
  9
$ACADMAINTVER
 70
     6
  9
$DWGCODEPAGE
  3
ANSI_1254
  9
$INSBASE
 10
0.0
 20
0.0
 30
0.0
  9
$EXTMIN
 10
0.0
 20
0.0
 30
0.0
  9
$EXTMAX
 10
279.4
 20
215.9
 30
0.0
  9
$LIMMIN
 10
0.0
 20
0.0
  9
$LIMMAX
 10
279.4
 20
215.9
  9
$ORTHOMODE
 70
     0
  9
$REGENMODE
 70
     1
  9
$FILLMODE
 70
     1
  9
$QTEXTMODE
 70
     0
  9
$MIRRTEXT
 70
     1
  9
$LTSCALE
 40
1.0
  9
$ATTMODE
 70
     1
  9
$TEXTSIZE
 40
3.5
  9
$TRACEWID
 40
1.0
  9
$TEXTSTYLE
  7
Standard
  9
$CLAYER
  8
0
  9
$CELTYPE
  6
ByLayer
  9
$CECOLOR
 62
   256
  9
$CELTSCALE
 40
1.0
  9
$DISPSILH
 70
     0
  9
$DIMSCALE
 40
1.0
  9
$DIMASZ
 40
3.5
  9
$DIMEXO
 40
1.0
  9
$DIMDLI
 40
3.75
  9
$DIMRND
 40
0.0
  9
$DIMDLE
 40
0.0
  9
$DIMEXE
 40
1.0
  9
$DIMTP
 40
0.0
  9
$DIMTM
 40
0.0
  9
$DIMTXT
 40
3.5
  9
$DIMCEN
 40
2.5
  9
$DIMTSZ
 40
0.0
  9
$DIMTOL
 70
     0
  9
$DIMLIM
 70
     0
  9
$DIMTIH
 70
     1
  9
$DIMTOH
 70
     1
  9
$DIMSE1
 70
     0
  9
$DIMSE2
 70
     0
  9
$DIMTAD
 70
     1
  9
$DIMZIN
 70
     0
  9
$DIMBLK
  1

  9
$DIMASO
 70
     1
  9
$DIMSHO
 70
     1
  9
$DIMPOST
  1

  9
$DIMAPOST
  1

  9
$DIMALT
 70
     0
  9
$DIMALTD
 70
     3
  9
$DIMALTF
 40
0.0393700787
  9
$DIMLFAC
 40
1.0
  9
$DIMTOFL
 70
     1
  9
$DIMTVP
 40
0.0
  9
$DIMTIX
 70
     0
  9
$DIMSOXD
 70
     0
  9
$DIMSAH
 70
     0
  9
$DIMBLK1
  1

  9
$DIMBLK2
  1

  9
$DIMSTYLE
  2
ISO-25
  9
$DIMCLRD
 70
     0
  9
$DIMCLRE
 70
     0
  9
$DIMCLRT
 70
     0
  9
$DIMTFAC
 40
1.0
  9
$DIMGAP
 40
1.524
  9
$DIMJUST
 70
     0
  9
$DIMSD1
 70
     0
  9
$DIMSD2
 70
     0
  9
$DIMTOLJ
 70
     0
  9
$DIMTZIN
 70
     0
  9
$DIMALTZ
 70
     0
  9
$DIMALTTZ
 70
     0
  9
$DIMUPT
 70
     0
  9
$DIMDEC
 70
     2
  9
$DIMTDEC
 70
     2
  9
$DIMALTU
 70
     2
  9
$DIMALTTD
 70
     3
  9
$DIMTXSTY
  7
Standard
  9
$DIMAUNIT
 70
     0
  9
$DIMADEC
 70
     2
  9
$DIMALTRND
 40
0.0
  9
$DIMAZIN
 70
     0
  9
$DIMDSEP
 70
    44
  9
$DIMATFIT
 70
     3
  9
$DIMFRAC
 70
     0
  9
$DIMLDRBLK
  1

  9
$DIMLUNIT
 70
     2
  9
$DIMLWD
 70
    -2
  9
$DIMLWE
 70
    -2
  9
$DIMTMOVE
 70
     0
  9
$LUNITS
 70
     2
  9
$LUPREC
 70
     2
  9
$SKETCHINC
 40
1.0
  9
$FILLETRAD
 40
10.0
  9
$AUNITS
 70
     0
  9
$AUPREC
 70
     2
  9
$MENU
  1
.
  9
$ELEVATION
 40
0.0
  9
$PELEVATION
 40
0.0
  9
$THICKNESS
 40
0.0
  9
$LIMCHECK
 70
     0
  9
$CHAMFERA
 40
0.0
  9
$CHAMFERB
 40
0.0
  9
$CHAMFERC
 40
0.0
  9
$CHAMFERD
 40
0.0
  9
$SKPOLY
 70
     0
  9
$TDCREATE
 40
2458985.706251701
  9
$TDUCREATE
 40
2458985.581251701
  9
$TDUPDATE
 40
2458985.706252072
  9
$TDUUPDATE
 40
2458985.581252072
  9
$TDINDWG
 40
0.0000000116
  9
$TDUSRTIMER
 40
0.0000000116
  9
$USRTIMER
 70
     1
  9
$ANGBASE
 50
0.0
  9
$ANGDIR
 70
     0
  9
$PDMODE
 70
     0
  9
$PDSIZE
 40
-1.0
  9
$PLINEWID
 40
0.0
  9
$SPLFRAME
 70
     0
  9
$SPLINETYPE
 70
     6
  9
$SPLINESEGS
 70
     8
  9
$HANDSEED
  5
F0
  9
$SURFTAB1
 70
     6
  9
$SURFTAB2
 70
     6
  9
$SURFTYPE
 70
     6
  9
$SURFU
 70
     6
  9
$SURFV
 70
     6
  9
$UCSBASE
  2

  9
$UCSNAME
  2

  9
$UCSORG
 10
0.0
 20
0.0
 30
0.0
  9
$UCSXDIR
 10
1.0
 20
0.0
 30
0.0
  9
$UCSYDIR
 10
0.0
 20
1.0
 30
0.0
  9
$UCSORTHOREF
  2

  9
$UCSORTHOVIEW
 70
     0
  9
$UCSORGTOP
 10
0.0
 20
0.0
 30
0.0
  9
$UCSORGBOTTOM
 10
0.0
 20
0.0
 30
0.0
  9
$UCSORGLEFT
 10
0.0
 20
0.0
 30
0.0
  9
$UCSORGRIGHT
 10
0.0
 20
0.0
 30
0.0
  9
$UCSORGFRONT
 10
0.0
 20
0.0
 30
0.0
  9
$UCSORGBACK
 10
0.0
 20
0.0
 30
0.0
  9
$PUCSBASE
  2

  9
$PUCSNAME
  2

  9
$PUCSORG
 10
0.0
 20
0.0
 30
0.0
  9
$PUCSXDIR
 10
1.0
 20
0.0
 30
0.0
  9
$PUCSYDIR
 10
0.0
 20
1.0
 30
0.0
  9
$PUCSORTHOREF
  2

  9
$PUCSORTHOVIEW
 70
     0
  9
$PUCSORGTOP
 10
0.0
 20
0.0
 30
0.0
  9
$PUCSORGBOTTOM
 10
0.0
 20
0.0
 30
0.0
  9
$PUCSORGLEFT
 10
0.0
 20
0.0
 30
0.0
  9
$PUCSORGRIGHT
 10
0.0
 20
0.0
 30
0.0
  9
$PUCSORGFRONT
 10
0.0
 20
0.0
 30
0.0
  9
$PUCSORGBACK
 10
0.0
 20
0.0
 30
0.0
  9
$USERI1
 70
     0
  9
$USERI2
 70
     0
  9
$USERI3
 70
     0
  9
$USERI4
 70
     0
  9
$USERI5
 70
     0
  9
$USERR1
 40
0.0
  9
$USERR2
 40
0.0
  9
$USERR3
 40
0.0
  9
$USERR4
 40
0.0
  9
$USERR5
 40
0.0
  9
$WORLDVIEW
 70
     1
  9
$SHADEDGE
 70
     3
  9
$SHADEDIF
 70
    70
  9
$TILEMODE
 70
     1
  9
$MAXACTVP
 70
    64
  9
$PINSBASE
 10
0.0
 20
0.0
 30
0.0
  9
$PLIMCHECK
 70
     0
  9
$PEXTMIN
 10
1.0000000000E+20
 20
1.0000000000E+20
 30
1.0000000000E+20
  9
$PEXTMAX
 10
-1.0000000000E+20
 20
-1.0000000000E+20
 30
-1.0000000000E+20
  9
$PLIMMIN
 10
0.0
 20
0.0
  9
$PLIMMAX
 10
420.0
 20
297.0
  9
$UNITMODE
 70
     0
  9
$VISRETAIN
 70
     1
  9
$PLINEGEN
 70
     0
  9
$PSLTSCALE
 70
     1
  9
$TREEDEPTH
 70
  3020
  9
$CMLSTYLE
  2
Standard
  9
$CMLJUST
 70
     0
  9
$CMLSCALE
 40
20.0
  9
$PROXYGRAPHICS
 70
     1
  9
$MEASUREMENT
 70
     1
  9
$CELWEIGHT
370
    -1
  9
$ENDCAPS
280
     0
  9
$JOINSTYLE
280
     0
  9
$LWDISPLAY
290
     1
  9
$INSUNITS
 70
     4
  9
$HYPERLINKBASE
  1

  9
$STYLESHEET
  1

  9
$XEDIT
290
     1
  9
$CEPSNTYPE
380
     0
  9
$PSTYLEMODE
290
     1
  9
$FINGERPRINTGUID
  2
{a00e6a9e-b77a-403e-8960-4030afb9bbc9}
  9
$VERSIONGUID
  2
{FAEB1C32-E019-11D5-929B-00C0DF256EC4}
  9
$EXTNAMES
290
     1
  9
$PSVPSCALE
 40
0.0
  9
$OLESTARTUP
290
     0
  0
ENDSEC
  0
SECTION
  2
CLASSES
  0
CLASS
  1
ACDBDICTIONARYWDFLT
  2
AcDbDictionaryWithDefault
  3
ObjectDBX Classes
 90
        0
280
     0
281
     0
  0
CLASS
  1
VISUALSTYLE
  2
AcDbVisualStyle
  3
ObjectDBX Classes
 90
     4095
280
     0
281
     0
  0
CLASS
  1
MATERIAL
  2
AcDbMaterial
  3
ObjectDBX Classes
 90
     1153
280
     0
281
     0
  0
CLASS
  1
SCALE
  2
AcDbScale
  3
ObjectDBX Classes
 90
     1153
280
     0
281
     0
  0
CLASS
  1
TABLESTYLE
  2
AcDbTableStyle
  3
ObjectDBX Classes
 90
     4095
280
     0
281
     0
  0
CLASS
  1
MLEADERSTYLE
  2
AcDbMLeaderStyle
  3
ACDB_MLEADERSTYLE_CLASS
 90
     4095
280
     0
281
     0
  0
CLASS
  1
SUN
  2
AcDbSun
  3
SCENEOE
 90
     1153
280
     0
281
     0
  0
CLASS
  1
ACDBPLACEHOLDER
  2
AcDbPlaceHolder
  3
ObjectDBX Classes
 90
        0
280
     0
281
     0
  0
CLASS
  1
LAYOUT
  2
AcDbLayout
  3
ObjectDBX Classes
 90
        0
280
     0
281
     0
  0
ENDSEC
  0
SECTION
  2
TABLES
  0
TABLE
  2
VPORT
  5
8
330
0
100
AcDbSymbolTable
 70
     1
  0
VPORT
  5
29
330
8
100
AcDbSymbolTableRecord
100
AcDbViewportTableRecord
  2
*Active
 70
     0
 10
0.0
 20
0.0
 11
1.0
 21
1.0
 12
139.7
 22
107.95
 13
0.0
 23
0.0
 14
10.0
 24
10.0
 15
10.0
 25
10.0
 16
0.0
 26
0.0
 36
1.0
 17
0.0
 27
0.0
 37
0.0
 40
215.9
 41
1.2941176471
 42
50.0
 43
0.0
 44
0.0
 50
0.0
 51
0.0
 71
     0
 72
  2000
 73
     1
 74
     3
 75
     0
 76
     0
 77
     0
 78
     0
281
     0
 65
     1
110
0.0
120
0.0
130
0.0
111
1.0
121
0.0
131
0.0
112
0.0
122
1.0
132
0.0
 79
     0
146
0.0
  0
ENDTAB
  0
TABLE
  2
LTYPE
  5
5
330
0
100
AcDbSymbolTable
 70
     6
  0
LTYPE
  5
14
330
5
100
AcDbSymbolTableRecord
100
AcDbLinetypeTableRecord
  2
ByBlock
 70
     0
  3

 72
    65
 73
     0
 40
0.0
  0
LTYPE
  5
15
330
5
100
AcDbSymbolTableRecord
100
AcDbLinetypeTableRecord
  2
ByLayer
 70
     0
  3

 72
    65
 73
     0
 40
0.0
  0
LTYPE
  5
16
330
5
100
AcDbSymbolTableRecord
100
AcDbLinetypeTableRecord
  2
Continuous
 70
     0
  3
Solid line
 72
    65
 73
     0
 40
0.0
  0
LTYPE
  5
6E
330
5
100
AcDbSymbolTableRecord
100
AcDbLinetypeTableRecord
  2
HIDDEN
 70
     0
  3
Hidden __ __ __ __ __ __ __ __ __ __ __ __ __ __
 72
    65
 73
     2
 40
1.905
 49
1.27
 74
     0
 49
-0.635
 74
     0
  0
LTYPE
  5
6F
330
5
100
AcDbSymbolTableRecord
100
AcDbLinetypeTableRecord
  2
PHANTOM
 70
     0
  3
Phantom ______  __  __  ______  __  __  ______
 72
    65
 73
     6
 40
12.7
 49
6.35
 74
     0
 49
-1.27
 74
     0
 49
1.27
 74
     0
 49
-1.27
 74
     0
 49
1.27
 74
     0
 49
-1.27
 74
     0
  0
LTYPE
  5
70
330
5
100
AcDbSymbolTableRecord
100
AcDbLinetypeTableRecord
  2
CENTER
 70
     0
  3
Center ____ _ ____ _ ____ _ ____ _ ____ _ ____
 72
    65
 73
     4
 40
10.16
 49
6.35
 74
     0
 49
-1.27
 74
     0
 49
1.27
 74
     0
 49
-1.27
 74
     0
  0
LTYPE
  5
71
330
5
100
AcDbSymbolTableRecord
100
AcDbLinetypeTableRecord
  2
CENTERX2
 70
     0
  3
Center (2x) ________  __  ________  __  _____
 72
    65
 73
     4
 40
20.32
 49
12.7
 74
     0
 49
-2.54
 74
     0
 49
2.54
 74
     0
 49
-2.54
 74
     0
  0
LTYPE
  5
72
330
5
100
AcDbSymbolTableRecord
100
AcDbLinetypeTableRecord
  2
DOT2
 70
     0
  3
Dot (.5x) ........................................
 72
    65
 73
     2
 40
0.635
 49
0.0
 74
     0
 49
-0.635
 74
     0
  0
ENDTAB
  0
TABLE
  2
LAYER
  5
2
330
0
100
AcDbSymbolTable
 70
    17
  0
LAYER
  5
10
330
2
100
AcDbSymbolTableRecord
100
AcDbLayerTableRecord
  2
0
 70
     0
 62
     7
  6
Continuous
370
    -3
390
F
  0
LAYER
  5
73
330
2
100
AcDbSymbolTableRecord
100
AcDbLayerTableRecord
  2
FORMAT
 70
     0
 62
     7
  6
Continuous
370
    -3
390
F
  0
LAYER
  5
74
330
2
100
AcDbSymbolTableRecord
100
AcDbLayerTableRecord
  2
YARDIMCI_GEOMETRI
 70
     0
 62
    -6
  6
Continuous
290
     0
370
    -3
390
F
  0
LAYER
  5
75
330
2
100
AcDbSymbolTableRecord
100
AcDbLayerTableRecord
  2
SAYFA_CERCEVESI
 70
     0
 62
     7
  6
Continuous
370
    25
390
F
  0
LAYER
  5
76
330
2
100
AcDbSymbolTableRecord
100
AcDbLayerTableRecord
  2
ANTET
 70
     0
 62
     7
  6
Continuous
370
    -3
390
F
  0
LAYER
  5
77
330
2
100
AcDbSymbolTableRecord
100
AcDbLayerTableRecord
  2
OLCU
 70
     0
 62
   150
  6
Continuous
370
    -3
390
F
  0
LAYER
  5
78
330
2
100
AcDbSymbolTableRecord
100
AcDbLayerTableRecord
  2
METIN
 70
     0
 62
    96
  6
Continuous
370
    -3
390
F
  0
LAYER
  5
79
330
2
100
AcDbSymbolTableRecord
100
AcDbLayerTableRecord
  2
BALON
 70
     0
 62
     5
  6
Continuous
370
    -3
390
F
  0
LAYER
  5
7A
330
2
100
AcDbSymbolTableRecord
100
AcDbLayerTableRecord
  2
VURGU
 70
     0
 62
     7
  6
Continuous
370
    -3
390
F
  0
LAYER
  5
7B
330
2
100
AcDbSymbolTableRecord
100
AcDbLayerTableRecord
  2
SILIK
 70
     0
 62
     7
  6
Continuous
370
    -3
390
F
  0
LAYER
  5
7C
330
2
100
AcDbSymbolTableRecord
100
AcDbLayerTableRecord
  2
MODEL
 70
     0
 62
     7
  6
Continuous
370
    -3
390
F
  0
LAYER
  5
7D
330
2
100
AcDbSymbolTableRecord
100
AcDbLayerTableRecord
  2
DETAYLANDıRMA
 70
     0
 62
   190
  6
Continuous
370
    -3
390
F
  0
LAYER
  5
7E
330
2
100
AcDbSymbolTableRecord
100
AcDbLayerTableRecord
  2
TOLERANS
 70
     0
 62
   230
  6
Continuous
370
    -3
390
F
  0
LAYER
  5
7F
330
2
100
AcDbSymbolTableRecord
100
AcDbLayerTableRecord
  2
MERKEZ_CIZGILERI
 70
     0
 62
    30
  6
Continuous
370
    -3
390
F
  0
LAYER
  5
80
330
2
100
AcDbSymbolTableRecord
100
AcDbLayerTableRecord
  2
KESIT-DETAY_CIZGILERI
 70
     0
 62
     7
  6
Continuous
370
    -3
390
F
  0
LAYER
  5
81
330
2
100
AcDbSymbolTableRecord
100
AcDbLayerTableRecord
  2
\U+041E\U+0421\U+0415\U+0412\U+042B\U+0415
 70
     0
 62
     7
  6
Continuous
370
    -3
390
F
  0
LAYER
  5
82
330
2
100
AcDbSymbolTableRecord
100
AcDbLayerTableRecord
  2
\U+0412\U+041E\U+0414\U+042F\U+041D\U+042B\U+0415_\U+0417\U+041D\U+0410\U+041A\U+0418
 70
     0
 62
    11
  6
Continuous
370
    -3
390
F
  0
ENDTAB
  0
TABLE
  2
STYLE
  5
3
330
0
100
AcDbSymbolTable
 70
     1
  0
STYLE
  5
11
330
3
100
AcDbSymbolTableRecord
100
AcDbTextStyleTableRecord
  2
Standard
 70
     0
 40
0.0
 41
1.0
 50
0.0
 71
     0
 42
3.5
  3
txt
  4

  0
ENDTAB
  0
TABLE
  2
VIEW
  5
6
330
0
100
AcDbSymbolTable
 70
     0
  0
ENDTAB
  0
TABLE
  2
UCS
  5
7
330
0
100
AcDbSymbolTable
 70
     0
  0
ENDTAB
  0
TABLE
  2
APPID
  5
9
330
0
100
AcDbSymbolTable
 70
     1
  0
APPID
  5
12
330
9
100
AcDbSymbolTableRecord
100
AcDbRegAppTableRecord
  2
ACAD
 70
     0
  0
ENDTAB
  0
TABLE
  2
DIMSTYLE
  5
A
330
0
100
AcDbSymbolTable
 70
     1
100
AcDbDimStyleTable
  0
DIMSTYLE
105
27
330
A
100
AcDbSymbolTableRecord
100
AcDbDimStyleTableRecord
  2
ISO-25
 70
     0
 41
2.5
 42
0.625
 43
3.75
 44
1.25
 73
     0
 74
     0
 77
     1
 78
     8
140
2.5
141
2.5
143
0.0393700787
147
0.625
171
     3
172
     1
178
     0
271
     2
272
     2
274
     3
278
    44
283
     0
284
     8
340
11
  0
ENDTAB
  0
TABLE
  2
BLOCK_RECORD
  5
1
330
0
100
AcDbSymbolTable
 70
     2
  0
BLOCK_RECORD
  5
1F
330
1
100
AcDbSymbolTableRecord
100
AcDbBlockTableRecord
  2
*Model_Space
340
22
  0
BLOCK_RECORD
  5
1B
330
1
100
AcDbSymbolTableRecord
100
AcDbBlockTableRecord
  2
*Paper_Space
340
1E
  0
BLOCK_RECORD
  5
23
330
1
100
AcDbSymbolTableRecord
100
AcDbBlockTableRecord
  2
*Paper_Space0
340
26
  0
BLOCK_RECORD
  5
88
330
1
100
AcDbSymbolTableRecord
100
AcDbBlockTableRecord
  2
SW_CENTERMARKSYMBOL_0
340
0
102
{BLKREFS
331
93
102
}
  0
ENDTAB
  0
ENDSEC
  0
SECTION
  2
BLOCKS
  0
BLOCK
  5
20
330
1F
100
AcDbEntity
  8
0
100
AcDbBlockBegin
  2
*Model_Space
 70
     0
 10
0.0
 20
0.0
 30
0.0
  3
*Model_Space
  1

  0
ENDBLK
  5
21
330
1F
100
AcDbEntity
  8
0
100
AcDbBlockEnd
  0
BLOCK
  5
1C
330
1B
100
AcDbEntity
 67
     1
  8
0
100
AcDbBlockBegin
  2
*Paper_Space
 70
     0
 10
0.0
 20
0.0
 30
0.0
  3
*Paper_Space
  1

  0
ENDBLK
  5
1D
330
1B
100
AcDbEntity
 67
     1
  8
0
100
AcDbBlockEnd
  0
BLOCK
  5
24
330
23
100
AcDbEntity
  8
0
100
AcDbBlockBegin
  2
*Paper_Space0
 70
     0
 10
0.0
 20
0.0
 30
0.0
  3
*Paper_Space0
  1

  0
ENDBLK
  5
25
330
23
100
AcDbEntity
  8
0
100
AcDbBlockEnd
  0
BLOCK
  5
89
330
88
100
AcDbEntity
  8
0
100
AcDbBlockBegin
  2
SW_CENTERMARKSYMBOL_0
 70
     0
 10
0.0
 20
0.0
 30
0.0
  3
SW_CENTERMARKSYMBOL_0
  1

  0
LINE
  5
8B
330
88
100
AcDbEntity
  8
FORMAT
 62
     0
100
AcDbLine
 10
0.0
 20
0.0
 30
0.0
 11
0.0
 21
2.5
 31
0.0
  0
LINE
  5
8C
330
88
100
AcDbEntity
  8
FORMAT
 62
     0
100
AcDbLine
 10
0.0
 20
0.0
 30
0.0
 11
-2.5
 21
0.0
 31
0.0
  0
LINE
  5
8D
330
88
100
AcDbEntity
  8
FORMAT
 62
     0
100
AcDbLine
 10
0.0
 20
0.0
 30
0.0
 11
0.0
 21
-2.5
 31
0.0
  0
LINE
  5
8E
330
88
100
AcDbEntity
  8
FORMAT
 62
     0
100
AcDbLine
 10
0.0
 20
0.0
 30
0.0
 11
2.5
 21
0.0
 31
0.0
  0
LINE
  5
8F
330
88
100
AcDbEntity
  8
FORMAT
 62
     0
100
AcDbLine
 10
0.0
 20
5.0
 30
0.0
 11
0.0
 21
160.0
 31
0.0
  0
LINE
  5
90
330
88
100
AcDbEntity
  8
FORMAT
 62
     0
100
AcDbLine
 10
-5.0
 20
0.0
 30
0.0
 11
-160.0
 21
0.0
 31
0.0
  0
LINE
  5
91
330
88
100
AcDbEntity
  8
FORMAT
 62
     0
100
AcDbLine
 10
0.0
 20
-5.0
 30
0.0
 11
0.0
 21
-160.0
 31
0.0
  0
LINE
  5
92
330
88
100
AcDbEntity
  8
FORMAT
 62
     0
100
AcDbLine
 10
5.0
 20
0.0
 30
0.0
 11
160.0
 21
0.0
 31
0.0
  0
ENDBLK
  5
8A
330
88
100
AcDbEntity
  8
0
100
AcDbBlockEnd
  0
ENDSEC
  0
SECTION
  2
ENTITIES
  0
CIRCLE
  5
83
330
1F
100
AcDbEntity
  8
0
  6
Continuous
 62
     7
370
    25
100
AcDbCircle
 10
130.6810329512
 20
112.0420513222
 30
0.0
 40
157.5
  0
CIRCLE
  5
84
330
1F
100
AcDbEntity
  8
0
  6
Continuous
 62
     7
370
    25
100
AcDbCircle
 10
130.6810329512
 20
112.0420513222
 30
0.0
 40
138.8
  0
CIRCLE
  5
85
330
1F
100
AcDbEntity
  8
0
  6
Continuous
 62
     7
370
    25
100
AcDbCircle
 10
130.6810329512
 20
112.0420513222
 30
0.0
 40
138.5359645961659
  0
CIRCLE
  5
86
330
1F
100
AcDbEntity
  8
0
  6
Continuous
 62
     7
370
    25
100
AcDbCircle
 10
130.6810329512
 20
112.0420513222
 30
0.0
 40
110.4640354038342
  0
CIRCLE
  5
87
330
1F
100
AcDbEntity
  8
0
  6
Continuous
 62
     7
370
    25
100
AcDbCircle
 10
130.6810329512
 20
112.0420513222
 30
0.0
 40
110.2
  0
INSERT
  5
93
330
1F
100
AcDbEntity
  8
FORMAT
 62
     7
100
AcDbBlockReference
  2
SW_CENTERMARKSYMBOL_0
 10
130.6810329512
 20
112.0420513222
 30
0.0
  0
ARC
  5
94
330
1F
100
AcDbEntity
  8
0
  6
Continuous
 62
     7
370
    25
100
AcDbCircle
 10
-427.6437687041
 20
267.5420513222
 30
0.0
 40
1.999999999999983
100
AcDbArc
 50
71.2968981606
 51
90.0
  0
ARC
  5
95
330
1F
100
AcDbEntity
  8
0
  6
Continuous
 62
     7
370
    25
100
AcDbCircle
 10
-427.6437687041
 20
-43.4579486778
 30
0.0
 40
1.999999999999983
100
AcDbArc
 50
270.0
 51
288.7031018394
  0
LINE
  5
96
330
1F
100
AcDbEntity
  8
0
  6
Continuous
 62
     7
370
    25
100
AcDbLine
 10
-427.6437697769
 20
269.5420501301
 30
0.0
 11
-577.3144079209
 21
269.5420501301
 31
0.0
  0
LINE
  5
97
330
1F
100
AcDbEntity
  8
0
  6
Continuous
 62
     7
370
    25
100
AcDbLine
 10
-577.3144079209
 20
-45.4579474857
 30
0.0
 11
-427.6437697769
 21
-45.4579474857
 31
0.0
  0
LINE
  5
98
330
1F
100
AcDbEntity
  8
0
  6
Continuous
 62
     7
370
    25
100
AcDbLine
 10
-427.0024387003
 20
-45.3523280551
 30
0.0
 11
-331.6263755621
 21
-13.0635681083
 31
0.0
  0
LINE
  5
99
330
1F
100
AcDbEntity
  8
0
  6
Continuous
 62
     7
370
    25
100
AcDbLine
 10
-331.6263755621
 20
237.1476707528
 30
0.0
 11
-427.0024387003
 21
269.4364306996
 31
0.0
  0
ARC
  5
9A
330
1F
100
AcDbEntity
  8
0
  6
Continuous
 62
     7
370
    25
100
AcDbCircle
 10
-330.9850475956
 20
239.0420513222
 30
0.0
 40
1.999999999999974
100
AcDbArc
 50
251.2968981606
 51
270.0
  0
ARC
  5
9B
330
1F
100
AcDbEntity
  8
0
  6
Continuous
 62
     7
370
    25
100
AcDbCircle
 10
-330.9850475956
 20
-14.9579486778
 30
0.0
 40
1.999999999999976
100
AcDbArc
 50
90.0
 51
108.7031018394
  0
LINE
  5
9C
330
1F
100
AcDbEntity
  8
0
  6
Continuous
 62
     7
370
    25
100
AcDbLine
 10
-202.314407921
 20
237.0420513222
 30
0.0
 11
-330.9850482107
 21
237.0420513222
 31
0.0
  0
LINE
  5
9D
330
1F
100
AcDbEntity
  8
0
  6
Continuous
 62
     7
370
    25
100
AcDbLine
 10
-330.9850482107
 20
-12.9579486778
 30
0.0
 11
-202.314407921
 21
-12.9579486778
 31
0.0
  0
LINE
  5
9E
330
1F
100
AcDbEntity
  8
0
  6
Continuous
 62
     7
370
    25
100
AcDbLine
 10
-577.3144079209
 20
269.5420501301
 30
0.0
 11
-577.3144079209
 21
-45.4579474857
 31
0.0
  0
LINE
  5
9F
330
1F
100
AcDbEntity
  8
0
  6
Continuous
 62
     7
370
    25
100
AcDbLine
 10
-202.314407921
 20
237.0420513222
 30
0.0
 11
-202.314407921
 21
-12.9579486778
 31
0.0
  0
LINE
  5
A0
330
1F
100
AcDbEntity
  8
0
  6
Continuous
 62
     1
370
    25
100
AcDbLine
 10
-427.0024387003
 20
269.4364306996
 30
0.0
 11
-427.0024387003
 21
-45.3523280551
 31
0.0
  0
LINE
  5
A1
330
1F
100
AcDbEntity
  8
0
  6
Continuous
 62
     1
370
    25
100
AcDbLine
 10
-427.6437697769
 20
269.5420501301
 30
0.0
 11
-427.6437697769
 21
-45.4579474857
 31
0.0
  0
LINE
  5
A2
330
1F
100
AcDbEntity
  8
0
  6
Continuous
 62
     1
370
    25
100
AcDbLine
 10
-331.6263755621
 20
237.1476707528
 30
0.0
 11
-331.6263755621
 21
-13.0635681083
 31
0.0
  0
LINE
  5
A3
330
1F
100
AcDbEntity
  8
0
  6
Continuous
 62
     1
370
    25
100
AcDbLine
 10
-330.9850482107
 20
237.0420513222
 30
0.0
 11
-330.9850482107
 21
-12.9579486778
 31
0.0
  0
ARC
  5
A4
330
1F
100
AcDbEntity
  8
0
  6
Continuous
 62
     7
370
    25
100
AcDbCircle
 10
286.1810329512
 20
538.4124817657
 30
0.0
 40
2.000000000000037
100
AcDbArc
 50
341.2968981606
 51
0.0
  0
ARC
  5
A5
330
1F
100
AcDbEntity
  8
0
  6
Continuous
 62
     7
370
    25
100
AcDbCircle
 10
-24.8189670488
 20
538.4124817657
 30
0.0
 40
2.000000000000041
100
AcDbArc
 50
180.0
 51
198.7031018394
  0
LINE
  5
A6
330
1F
100
AcDbEntity
  8
0
  6
Continuous
 62
     7
370
    25
100
AcDbLine
 10
288.1810317591
 20
538.4124828386
 30
0.0
 11
288.1810317591
 21
688.0831209826
 31
0.0
  0
LINE
  5
A7
330
1F
100
AcDbEntity
  8
0
  6
Continuous
 62
     7
370
    25
100
AcDbLine
 10
-26.8189658567
 20
688.0831209826
 30
0.0
 11
-26.8189658567
 21
538.4124828386
 31
0.0
  0
LINE
  5
A8
330
1F
100
AcDbEntity
  8
0
  6
Continuous
 62
     7
370
    25
100
AcDbLine
 10
-26.7133464262
 20
537.771151762
 30
0.0
 11
5.5754135206
 21
442.3950886238
 31
0.0
  0
LINE
  5
A9
330
1F
100
AcDbEntity
  8
0
  6
Continuous
 62
     7
370
    25
100
AcDbLine
 10
255.7866523817
 20
442.3950886238
 30
0.0
 11
288.0754123285
 21
537.771151762
 31
0.0
  0
ARC
  5
AA
330
1F
100
AcDbEntity
  8
0
  6
Continuous
 62
     7
370
    25
100
AcDbCircle
 10
257.6810329512
 20
441.7537606573
 30
0.0
 40
2.000000000000001
100
AcDbArc
 50
161.2968981606
 51
180.0
  0
ARC
  5
AB
330
1F
100
AcDbEntity
  8
0
  6
Continuous
 62
     7
370
    25
100
AcDbCircle
 10
3.6810329512
 20
441.7537606573
 30
0.0
 40
1.999999999999977
100
AcDbArc
 50
0.0
 51
18.7031018394
  0
LINE
  5
AC
330
1F
100
AcDbEntity
  8
0
  6
Continuous
 62
     7
370
    25
100
AcDbLine
 10
255.6810329512
 20
313.0831209826
 30
0.0
 11
255.6810329512
 21
441.7537612724
 31
0.0
  0
LINE
  5
AD
330
1F
100
AcDbEntity
  8
0
  6
Continuous
 62
     7
370
    25
100
AcDbLine
 10
5.6810329512
 20
441.7537612724
 30
0.0
 11
5.6810329512
 21
313.0831209826
 31
0.0
  0
LINE
  5
AE
330
1F
100
AcDbEntity
  8
0
  6
Continuous
 62
     7
370
    25
100
AcDbLine
 10
288.1810317591
 20
688.0831209826
 30
0.0
 11
-26.8189658567
 21
688.0831209826
 31
0.0
  0
LINE
  5
AF
330
1F
100
AcDbEntity
  8
0
  6
Continuous
 62
     7
370
    25
100
AcDbLine
 10
255.6810329512
 20
313.0831209826
 30
0.0
 11
5.6810329512
 21
313.0831209826
 31
0.0
  0
LINE
  5
B0
330
1F
100
AcDbEntity
  8
0
  6
Continuous
 62
     1
370
    25
100
AcDbLine
 10
288.0754123285
 20
537.771151762
 30
0.0
 11
-26.7133464262
 21
537.771151762
 31
0.0
  0
LINE
  5
B1
330
1F
100
AcDbEntity
  8
0
  6
Continuous
 62
     1
370
    25
100
AcDbLine
 10
288.1810317591
 20
538.4124828386
 30
0.0
 11
-26.8189658567
 21
538.4124828386
 31
0.0
  0
LINE
  5
B2
330
1F
100
AcDbEntity
  8
0
  6
Continuous
 62
     1
370
    25
100
AcDbLine
 10
255.7866523817
 20
442.3950886238
 30
0.0
 11
5.5754135206
 21
442.3950886238
 31
0.0
  0
LINE
  5
B3
330
1F
100
AcDbEntity
  8
0
  6
Continuous
 62
     1
370
    25
100
AcDbLine
 10
255.6810329512
 20
441.7537612724
 30
0.0
 11
5.6810329512
 21
441.7537612724
 31
0.0
  0
ARC
  5
B4
330
1F
100
AcDbEntity
  8
0
  6
Continuous
 62
     7
370
    25
100
AcDbCircle
 10
714.2619476894
 20
-43.4579486778
 30
0.0
 40
2.000000000000001
100
AcDbArc
 50
251.2968981606
 51
270.0
  0
ARC
  5
B5
330
1F
100
AcDbEntity
  8
0
  6
Continuous
 62
     7
370
    25
100
AcDbCircle
 10
714.2619476894
 20
267.5420513222
 30
0.0
 40
2.000000000000001
100
AcDbArc
 50
90.0
 51
108.7031018394
  0
LINE
  5
B6
330
1F
100
AcDbEntity
  8
0
  6
Continuous
 62
     7
370
    25
100
AcDbLine
 10
714.2619487622
 20
-45.4579474857
 30
0.0
 11
863.9325869063
 21
-45.4579474857
 31
0.0
  0
LINE
  5
B7
330
1F
100
AcDbEntity
  8
0
  6
Continuous
 62
     7
370
    25
100
AcDbLine
 10
863.9325869063
 20
269.5420501301
 30
0.0
 11
714.2619487622
 21
269.5420501301
 31
0.0
  0
LINE
  5
B8
330
1F
100
AcDbEntity
  8
0
  6
Continuous
 62
     7
370
    25
100
AcDbLine
 10
713.6206176856
 20
269.4364306996
 30
0.0
 11
618.2445545474
 21
237.1476707528
 31
0.0
  0
LINE
  5
B9
330
1F
100
AcDbEntity
  8
0
  6
Continuous
 62
     7
370
    25
100
AcDbLine
 10
618.2445545474
 20
-13.0635681083
 30
0.0
 11
713.6206176856
 21
-45.3523280551
 31
0.0
  0
ARC
  5
BA
330
1F
100
AcDbEntity
  8
0
  6
Continuous
 62
     7
370
    25
100
AcDbCircle
 10
617.6032265809
 20
-14.9579486778
 30
0.0
 40
2.000000000000012
100
AcDbArc
 50
71.2968981606
 51
90.0
  0
ARC
  5
BB
330
1F
100
AcDbEntity
  8
0
  6
Continuous
 62
     7
370
    25
100
AcDbCircle
 10
617.6032265809
 20
239.0420513222
 30
0.0
 40
2.000000000000011
100
AcDbArc
 50
270.0
 51
288.7031018394
  0
LINE
  5
BC
330
1F
100
AcDbEntity
  8
0
  6
Continuous
 62
     7
370
    25
100
AcDbLine
 10
488.9325869063
 20
-12.9579486778
 30
0.0
 11
617.603227196
 21
-12.9579486778
 31
0.0
  0
LINE
  5
BD
330
1F
100
AcDbEntity
  8
0
  6
Continuous
 62
     7
370
    25
100
AcDbLine
 10
617.603227196
 20
237.0420513222
 30
0.0
 11
488.9325869063
 21
237.0420513222
 31
0.0
  0
LINE
  5
BE
330
1F
100
AcDbEntity
  8
0
  6
Continuous
 62
     7
370
    25
100
AcDbLine
 10
863.9325869063
 20
112.0420513222
 30
0.0
 11
863.9325869063
 21
269.5420501301
 31
0.0
  0
LINE
  5
BF
330
1F
100
AcDbEntity
  8
0
  6
Continuous
 62
     7
370
    25
100
AcDbLine
 10
863.9325869063
 20
-45.4579474857
 30
0.0
 11
863.9325869063
 21
112.0420513222
 31
0.0
  0
LINE
  5
C0
330
1F
100
AcDbEntity
  8
0
  6
Continuous
 62
     7
370
    25
100
AcDbLine
 10
488.9325869063
 20
112.0420513222
 30
0.0
 11
488.9325869063
 21
237.0420513222
 31
0.0
  0
LINE
  5
C1
330
1F
100
AcDbEntity
  8
0
  6
Continuous
 62
     7
370
    25
100
AcDbLine
 10
488.9325869063
 20
-12.9579486778
 30
0.0
 11
488.9325869063
 21
112.0420513222
 31
0.0
  0
LINE
  5
C2
330
1F
100
AcDbEntity
  8
0
  6
Continuous
 62
     1
370
    25
100
AcDbLine
 10
713.6206176856
 20
112.0420513222
 30
0.0
 11
713.6206176856
 21
269.4364306996
 31
0.0
  0
LINE
  5
C3
330
1F
100
AcDbEntity
  8
0
  6
Continuous
 62
     1
370
    25
100
AcDbLine
 10
713.6206176856
 20
-45.3523280551
 30
0.0
 11
713.6206176856
 21
112.0420513222
 31
0.0
  0
LINE
  5
C4
330
1F
100
AcDbEntity
  8
0
  6
Continuous
 62
     1
370
    25
100
AcDbLine
 10
714.2619487622
 20
112.0420513222
 30
0.0
 11
714.2619487622
 21
269.5420501301
 31
0.0
  0
LINE
  5
C5
330
1F
100
AcDbEntity
  8
0
  6
Continuous
 62
     1
370
    25
100
AcDbLine
 10
714.2619487622
 20
-45.4579474857
 30
0.0
 11
714.2619487622
 21
112.0420513222
 31
0.0
  0
LINE
  5
C6
330
1F
100
AcDbEntity
  8
0
  6
Continuous
 62
     1
370
    25
100
AcDbLine
 10
618.2445545474
 20
112.0420513222
 30
0.0
 11
618.2445545474
 21
237.1476707528
 31
0.0
  0
LINE
  5
C7
330
1F
100
AcDbEntity
  8
0
  6
Continuous
 62
     1
370
    25
100
AcDbLine
 10
618.2445545474
 20
-13.0635681083
 30
0.0
 11
618.2445545474
 21
112.0420513222
 31
0.0
  0
LINE
  5
C8
330
1F
100
AcDbEntity
  8
0
  6
Continuous
 62
     1
370
    25
100
AcDbLine
 10
617.603227196
 20
112.0420513222
 30
0.0
 11
617.603227196
 21
237.0420513222
 31
0.0
  0
LINE
  5
C9
330
1F
100
AcDbEntity
  8
0
  6
Continuous
 62
     1
370
    25
100
AcDbLine
 10
617.603227196
 20
-12.9579486778
 30
0.0
 11
617.603227196
 21
112.0420513222
 31
0.0
  0
ARC
  5
CA
330
1F
100
AcDbEntity
  8
0
  6
Continuous
 62
     7
370
    25
100
AcDbCircle
 10
-24.8189670488
 20
-376.1406355518
 30
0.0
 40
1.999999999999986
100
AcDbArc
 50
161.2968981606
 51
180.0
  0
ARC
  5
CB
330
1F
100
AcDbEntity
  8
0
  6
Continuous
 62
     7
370
    25
100
AcDbCircle
 10
286.1810329512
 20
-376.1406355518
 30
0.0
 40
1.999999999999983
100
AcDbArc
 50
0.0
 51
18.7031018394
  0
LINE
  5
CC
330
1F
100
AcDbEntity
  8
0
  6
Continuous
 62
     7
370
    25
100
AcDbLine
 10
-26.8189658567
 20
-376.1406366247
 30
0.0
 11
-26.8189658567
 21
-525.8112747687
 31
0.0
  0
LINE
  5
CD
330
1F
100
AcDbEntity
  8
0
  6
Continuous
 62
     7
370
    25
100
AcDbLine
 10
288.1810317591
 20
-525.8112747687
 30
0.0
 11
288.1810317591
 21
-376.1406366247
 31
0.0
  0
LINE
  5
CE
330
1F
100
AcDbEntity
  8
0
  6
Continuous
 62
     7
370
    25
100
AcDbLine
 10
288.0754123285
 20
-375.499305548
 30
0.0
 11
255.7866523817
 21
-280.1232424098
 31
0.0
  0
LINE
  5
CF
330
1F
100
AcDbEntity
  8
0
  6
Continuous
 62
     7
370
    25
100
AcDbLine
 10
5.5754135206
 20
-280.1232424098
 30
0.0
 11
-26.7133464262
 21
-375.499305548
 31
0.0
  0
ARC
  5
D0
330
1F
100
AcDbEntity
  8
0
  6
Continuous
 62
     7
370
    25
100
AcDbCircle
 10
3.6810329512
 20
-279.4819144433
 30
0.0
 40
1.999999999999977
100
AcDbArc
 50
341.2968981606
 51
0.0
  0
ARC
  5
D1
330
1F
100
AcDbEntity
  8
0
  6
Continuous
 62
     7
370
    25
100
AcDbCircle
 10
257.6810329512
 20
-279.4819144433
 30
0.0
 40
2.000000000000001
100
AcDbArc
 50
180.0
 51
198.7031018394
  0
LINE
  5
D2
330
1F
100
AcDbEntity
  8
0
  6
Continuous
 62
     7
370
    25
100
AcDbLine
 10
5.6810329512
 20
-150.8112747687
 30
0.0
 11
5.6810329512
 21
-279.4819150585
 31
0.0
  0
LINE
  5
D3
330
1F
100
AcDbEntity
  8
0
  6
Continuous
 62
     7
370
    25
100
AcDbLine
 10
255.6810329512
 20
-279.4819150585
 30
0.0
 11
255.6810329512
 21
-150.8112747687
 31
0.0
  0
LINE
  5
D4
330
1F
100
AcDbEntity
  8
0
  6
Continuous
 62
     7
370
    25
100
AcDbLine
 10
-26.8189658567
 20
-525.8112747687
 30
0.0
 11
288.1810317591
 21
-525.8112747687
 31
0.0
  0
LINE
  5
D5
330
1F
100
AcDbEntity
  8
0
  6
Continuous
 62
     7
370
    25
100
AcDbLine
 10
5.6810329512
 20
-150.8112747687
 30
0.0
 11
255.6810329512
 21
-150.8112747687
 31
0.0
  0
LINE
  5
D6
330
1F
100
AcDbEntity
  8
0
  6
Continuous
 62
     1
370
    25
100
AcDbLine
 10
-26.7133464262
 20
-375.499305548
 30
0.0
 11
288.0754123285
 21
-375.499305548
 31
0.0
  0
LINE
  5
D7
330
1F
100
AcDbEntity
  8
0
  6
Continuous
 62
     1
370
    25
100
AcDbLine
 10
-26.8189658567
 20
-376.1406366247
 30
0.0
 11
288.1810317591
 21
-376.1406366247
 31
0.0
  0
LINE
  5
D8
330
1F
100
AcDbEntity
  8
0
  6
Continuous
 62
     1
370
    25
100
AcDbLine
 10
5.5754135206
 20
-280.1232424098
 30
0.0
 11
255.7866523817
 21
-280.1232424098
 31
0.0
  0
LINE
  5
D9
330
1F
100
AcDbEntity
  8
0
  6
Continuous
 62
     1
370
    25
100
AcDbLine
 10
5.6810329512
 20
-279.4819150585
 30
0.0
 11
255.6810329512
 21
-279.4819150585
 31
0.0
  0
LINE
  5
DA
330
1F
100
AcDbEntity
  8
0
  6
Continuous
 62
     7
370
    25
100
AcDbLine
 10
713.4201586518
 20
-182.1135035993
 30
0.0
 11
607.5870354757
 21
-121.0173420581
 31
0.0
  0
LINE
  5
DB
330
1F
100
AcDbEntity
  8
0
  6
Continuous
 62
     7
370
    25
100
AcDbLine
 10
450.099835851
 20
-393.8227393464
 30
0.0
 11
555.9329590271
 21
-454.9189008877
 31
0.0
  0
SPLINE
  5
DC
330
1F
100
AcDbEntity
  8
0
  6
Continuous
 62
     7
370
    25
100
AcDbSpline
210
0.0
220
0.0
230
1.0
 70
     8
 71
     3
 72
     9
 73
     5
 74
     0
 42
0.000000001
 43
0.00000001
 40
0.0
 40
0.0
 40
0.0
 40
0.0
 40
0.1246477417867387
 40
1.0
 40
1.0
 40
1.0
 40
1.0
 10
723.7545421990737
 20
-189.8592550382907
 30
0.0
 10
723.7119320649963
 20
-189.8155613516608
 30
0.0
 10
723.370087652361
 20
-189.4650240213927
 30
0.0
 10
722.9966448272802
 20
-189.1590820414949
 30
0.0
 10
722.6697508070321
 20
-188.891275038509
 30
0.0
  0
LINE
  5
DD
330
1F
100
AcDbEntity
  8
0
  6
Continuous
 62
     7
370
    25
100
AcDbLine
 10
577.5695863509
 20
-462.0025350154
 30
0.0
 11
656.8189246377
 21
-471.5535394198
 31
0.0
  0
LINE
  5
DE
330
1F
100
AcDbEntity
  8
0
  6
Continuous
 62
     7
370
    25
100
AcDbLine
 10
778.2765852482
 20
-261.1599052557
 30
0.0
 11
730.374508182
 21
-197.3079628738
 31
0.0
  0
LINE
  5
DF
330
1F
100
AcDbEntity
  8
0
  6
Continuous
 62
     7
370
    25
100
AcDbLine
 10
856.5033988434
 20
-302.2404555449
 30
0.0
 11
772.8790201177
 21
-253.9651292758
 31
0.0
  0
LINE
  5
E0
330
1F
100
AcDbEntity
  8
0
  6
Continuous
 62
     7
370
    25
100
AcDbLine
 10
647.8891796475
 20
-470.477341524
 30
0.0
 11
731.5135583732
 21
-518.7526677931
 31
0.0
  0
LWPOLYLINE
  5
E1
330
1F
100
AcDbEntity
  8
0
  6
Continuous
 62
     7
370
    25
100
AcDbPolyline
 90
      134
 70
   128
 43
0.0
 10
417.4741184694
 20
-321.7121790217
 10
417.5983673788
 20
-315.5671463325
 10
417.9708612259
 20
-309.2923563399
 10
418.5907465371
 20
-302.9018250554
 10
419.456643003
 20
-296.4098072263
 10
420.5666329421
 20
-289.830783407
 10
421.9182296903
 20
-283.1794424655
 10
423.5084092112
 20
-276.4706237908
 10
425.3336417063
 20
-269.7192929615
 10
427.3898494678
 20
-262.9405158856
 10
429.6724279528
 20
-256.1494253427
 10
432.1763090025
 20
-249.3611601524
 10
434.8958765496
 20
-242.5908864598
 10
437.8250930578
 20
-235.8536973656
 10
440.9573941555
 20
-229.1646372519
 10
444.2858098078
 20
-222.5386196628
 10
447.8029063641
 20
-215.9904425086
 10
451.500833974
 20
-209.5347059404
 10
455.3713476601
 20
-203.1858245189
 10
459.4058020503
 20
-196.957957252
 10
463.5951987922
 20
-190.8650106408
 10
467.9301918224
 20
-184.9205687173
 10
472.401108439
 20
-179.1378930467
 10
476.9979651073
 20
-173.5299136033
 10
481.7105096065
 20
-168.1091071002
 10
486.5282289319
 20
-162.887601934
 10
491.4403677346
 20
-157.8770336987
 10
496.4359704684
 20
-153.0885816917
 10
501.5038840232
 20
-148.532930891
 10
506.6328051413
 20
-144.2202567505
 10
511.8112843678
 20
-140.160174249
 10
517.0277708321
 20
-136.3617363738
 10
522.2706214671
 20
-132.8334409658
 10
527.5281390409
 20
-129.5831357599
 10
532.7885917474
 20
-126.6180922471
 10
538.0402408664
 20
-123.9449167028
 10
543.2713687507
 20
-121.5695705318
 10
548.4703023696
 20
-119.4973688448
 10
553.6254401446
 20
-117.7329162967
 10
558.7252799372
 20
-116.2801639338
 10
563.7584407813
 20
-115.1423601461
 10
568.7136958101
 20
-114.3220194915
 10
573.5799814759
 20
-113.8209903776
 10
578.346442331
 20
-113.640392708
 10
583.0024468328
 20
-113.7806087585
 10
587.5375952466
 20
-114.2413637866
 10
591.9417775969
 20
-115.0215830701
 10
596.2051631315
 20
-116.1195683333
 10
600.3182371991
 20
-117.5328365325
 10
604.2718223237
 20
-119.2582536995
 10
608.0570992771
 20
-121.291961939
 10
611.6656176162
 20
-123.6294280992
 10
615.0893272929
 20
-126.2654316075
 10
618.3205944593
 20
-129.1940918484
 10
621.3521961993
 20
-132.408877289
 10
624.177373212
 20
-135.9026115671
 10
626.7898245435
 20
-139.667494784
 10
629.1837233921
 20
-143.6951308828
 10
631.3537171079
 20
-147.9765337317
 10
633.2949798769
 20
-152.5021423383
 10
635.0031600369
 20
-157.2618725564
 10
636.4744643716
 20
-162.2450866751
 10
637.7056054267
 20
-167.440675544
 10
638.6938225838
 20
-172.8370448869
 10
639.4369242066
 20
-178.4221518078
 10
639.9332454946
 20
-184.183535966
 10
640.1816906299
 20
-190.108334219
 10
640.1816906299
 20
-196.183334231
 10
639.9332454946
 20
-202.3949811314
 10
639.4369242066
 20
-208.7294056513
 10
638.6938225838
 20
-215.1724794435
 10
637.7056054267
 20
-221.7098200297
 10
636.4744643716
 20
-228.3268541046
 10
635.0031600369
 20
-235.0088000496
 10
633.2949798769
 20
-241.7407531005
 10
631.3537171079
 20
-248.507695992
 10
629.1837233921
 20
-255.2945202558
 10
626.7898245435
 20
-262.0860931331
 10
624.177373212
 20
-268.8672484543
 10
621.3521961993
 20
-275.6228626802
 10
618.3205944593
 20
-282.3378609856
 10
615.0893272929
 20
-288.9972628858
 10
611.6656176162
 20
-295.5861974463
 10
608.0570992771
 20
-302.0899701985
 10
604.2718223237
 20
-308.4940661821
 10
600.3182371991
 20
-314.7841955713
 10
596.2051631315
 20
-320.9463180068
 10
591.9417775969
 20
-326.966703432
 10
587.5375952466
 20
-332.8318834207
 10
583.0024468328
 20
-338.5288093523
 10
578.346442331
 20
-344.0447337755
 10
573.5799814759
 20
-349.3673746694
 10
568.7136958101
 20
-354.4848393922
 10
563.7584407813
 20
-359.3857144144
 10
558.7252799372
 20
-364.0590744432
 10
553.6254401446
 20
-368.4944717721
 10
548.4703023696
 20
-372.6820146071
 10
543.2713687507
 20
-376.6123739084
 10
538.0402408664
 20
-380.2767594333
 10
532.7885917474
 20
-383.6670088981
 10
527.5281390409
 20
-386.7755548004
 10
522.2706214671
 20
-389.5954501772
 10
517.0277708321
 20
-392.1204212651
 10
511.8112843678
 20
-394.3448104621
 10
506.6328051413
 20
-396.2636728101
 10
501.5038840232
 20
-397.872724945
 10
496.4359704684
 20
-399.1683625866
 10
491.4403677346
 20
-400.1477107249
 10
486.5282289319
 20
-400.8085772314
 10
481.7105096065
 20
-401.1494923989
 10
476.9979651073
 20
-401.1696739598
 10
472.401108439
 20
-400.869112254
 10
467.9301918224
 20
-400.2484470325
 10
463.5951987922
 20
-399.3090815256
 10
459.4058020503
 20
-398.0531094347
 10
455.3713476601
 20
-396.4833240567
 10
451.500833974
 20
-394.6032426161
 10
447.8029063641
 20
-392.4170423866
 10
444.2858098078
 20
-389.9296184808
 10
440.9573941555
 20
-387.1465078052
 10
437.8250930578
 20
-384.07392556
 10
434.8958765496
 20
-380.7187378583
 10
432.1763090025
 20
-377.0884100198
 10
429.6724279528
 20
-373.1910643547
 10
427.3898494678
 20
-369.0353828342
 10
425.3336417063
 20
-364.6306527069
 10
423.5084092112
 20
-359.9866904597
 10
421.9182296903
 20
-355.1138539799
 10
420.5666329421
 20
-350.0230334272
 10
419.456643003
 20
-344.7255767127
 10
418.5907465371
 20
-339.233301663
 10
417.9708612259
 20
-333.5584747246
 10
417.5983673788
 20
-327.7137569736
 10
417.4741184694
 20
-321.7121790217
  0
LWPOLYLINE
  5
E2
330
1F
100
AcDbEntity
  8
0
  6
Continuous
 62
     7
370
    25
100
AcDbPolyline
 90
      126
 70
   128
 43
0.0
 10
430.6970178401
 20
-314.0787616968
 10
430.8209822583
 20
-308.3127151686
 10
431.1925488747
 20
-302.4181158498
 10
431.8108009955
 20
-296.4098409703
 10
432.6741686506
 20
-290.3030734046
 10
433.7804602037
 20
-284.1132450205
 10
435.126893963
 20
-277.8559845903
 10
436.7100665703
 20
-271.5470987763
 10
438.5259740751
 20
-265.2025295469
 10
440.5700277392
 20
-258.8383009455
 10
442.8370698421
 20
-252.4704886738
 10
445.3213736808
 20
-246.1151805471
 10
448.0166593747
 20
-239.7884278272
 10
450.9161202079
 20
-233.5062178469
 10
454.0124331654
 20
-227.2844101333
 10
457.2977747384
 20
-221.1387333667
 10
460.7638472663
 20
-215.0847032534
 10
464.4018947411
 20
-209.137619485
 10
468.2027238816
 20
-203.3124988202
 10
472.1567410113
 20
-197.6240598785
 10
476.2539520589
 20
-192.0866683869
 10
480.484009973
 20
-186.714315892
 10
484.8362278933
 20
-181.5205695696
 10
489.2996107608
 20
-176.5185600614
 10
493.8628842934
 20
-171.7209099935
 10
498.5145239622
 20
-167.1397355002
 10
503.2427760649
 20
-162.7866279748
 10
508.0356959213
 20
-158.6725711831
 10
512.8811794831
 20
-154.8079473497
 10
517.7669857252
 20
-151.2025363995
 10
522.6807708893
 20
-147.8654475198
 10
527.6101237985
 20
-144.8050987733
 10
532.5425921172
 20
-142.0292262737
 10
537.4657161009
 20
-139.5448403672
 10
542.3670593836
 20
-137.3582200272
 10
547.2342406699
 20
-135.4748823907
 10
552.0549669095
 20
-133.8995879426
 10
556.8170550291
 20
-132.6363158027
 10
561.5084839571
 20
-131.6882580266
 10
566.1173946241
 20
-131.057819606
 10
570.6321492315
 20
-130.7465720863
 10
575.0413444227
 20
-130.7553189672
 10
579.3338323561
 20
-131.0840287841
 10
583.4987839259
 20
-131.7318777001
 10
587.5256676884
 20
-132.6972190852
 10
591.4043209847
 20
-133.9776276301
 10
595.1249341358
 20
-135.5698598007
 10
598.6781136628
 20
-137.4698964296
 10
602.0548875553
 20
-139.6729396749
 10
605.246726345
 20
-142.1734191062
 10
608.2455589102
 20
-144.9650190822
 10
611.0438146234
 20
-148.0406970063
 10
613.634428619
 20
-151.3926742009
 10
616.0108470622
 20
-155.0124815365
 10
618.1670745636
 20
-158.890986812
 10
620.09767418
 20
-163.0183765041
 10
621.7977410716
 20
-167.3842409366
 10
623.2630078702
 20
-171.9775377878
 10
624.4897656531
 20
-176.7866696506
 10
625.4749060902
 20
-181.7994901201
 10
626.2159425175
 20
-187.0033387767
 10
626.7110099368
 20
-192.3850640002
 10
626.9588650162
 20
-197.9310678369
 10
626.9588650162
 20
-203.6273501048
 10
626.7110099368
 20
-209.4595213249
 10
626.2159425175
 20
-215.4128392241
 10
625.4749060902
 20
-221.472270328
 10
624.4897656531
 20
-227.6225097355
 10
623.2630078702
 20
-233.8480259859
 10
621.7977410716
 20
-240.1330838726
 10
620.09767418
 20
-246.4618037576
 10
618.1670745636
 20
-252.8182163207
 10
616.0108470622
 20
-259.1862488783
 10
613.634428619
 20
-265.5498105459
 10
611.0438146234
 20
-271.8928469934
 10
608.2455589102
 20
-278.1993221944
 10
605.246726345
 20
-284.4533005515
 10
602.0548875553
 20
-290.6389986072
 10
598.6781136628
 20
-296.7407820019
 10
595.1249341358
 20
-302.7432323903
 10
591.4043209847
 20
-308.6311930679
 10
587.5256676884
 20
-314.3897993877
 10
583.4987839259
 20
-320.0044818009
 10
579.3338323561
 20
-325.4610814423
 10
575.0413444227
 20
-330.7457923357
 10
570.6321492315
 20
-335.8452876246
 10
566.1173946241
 20
-340.7466648208
 10
561.5084839571
 20
-345.4375613886
 10
556.8170550291
 20
-349.906112157
 10
552.0549669095
 20
-354.1410299276
 10
547.2342406699
 20
-358.1316275225
 10
542.3670593836
 20
-361.8678177842
 10
537.4657161009
 20
-365.3401679437
 10
532.5425921172
 20
-368.539899999
 10
527.6101237985
 20
-371.4589342006
 10
522.6807708893
 20
-374.0898951802
 10
517.7669857252
 20
-376.4261418906
 10
512.8811794831
 20
-378.4617627548
 10
508.0356959213
 20
-380.1916151601
 10
503.2427760649
 20
-381.6113458446
 10
498.5145239622
 20
-382.7173619963
 10
493.8628842934
 20
-383.5068563467
 10
489.2996107608
 20
-383.9778497533
 10
484.8362278933
 20
-384.1291524125
 10
480.484009973
 20
-383.9603699416
 10
476.2539520589
 20
-383.471938357
 10
472.1567410113
 20
-382.6650860487
 10
468.2027238816
 20
-381.5418581117
 10
464.4018947411
 20
-380.105081364
 10
460.7638472663
 20
-378.3583978021
 10
457.2977747384
 20
-376.3062098478
 10
454.0124331654
 20
-373.9537077214
 10
450.9161202079
 20
-371.3068268541
 10
448.0166593747
 20
-368.3722630952
 10
445.3213736808
 20
-365.1574209985
 10
442.8370698421
 20
-361.6704290302
 10
440.5700277392
 20
-357.920087856
 10
438.5259740751
 20
-353.9158733809
 10
436.7100665703
 20
-349.6679063291
 10
435.126893963
 20
-345.1869126998
 10
433.7804602037
 20
-340.4842115983
 10
432.6741686506
 20
-335.5716802533
 10
431.8108009955
 20
-330.4617357642
 10
431.1925488747
 20
-325.1672795893
 10
430.8209822583
 20
-319.7016819544
 10
430.6970178401
 20
-314.0787616968
  0
ARC
  5
E3
330
1F
100
AcDbEntity
  8
0
  6
Continuous
 62
     7
370
    25
100
AcDbCircle
 10
686.8046777361
 20
-228.1576161458
 30
0.0
 40
53.18311879310072
100
AcDbArc
 50
47.8941466702
 51
59.9702373153
  0
ARC
  5
E4
330
1F
100
AcDbEntity
  8
0
  6
Continuous
 62
     7
370
    25
100
AcDbCircle
 10
582.5373324037
 20
-408.7548665853
 30
0.0
 40
53.28142965264387
100
AcDbArc
 50
240.0451148709
 51
252.3942127608
  0
ARC
  5
E5
330
1F
100
AcDbEntity
  8
0
  6
Continuous
 62
     7
370
    25
100
AcDbCircle
 10
678.1469731878
 20
-236.8666468208
 30
0.0
 40
65.48724204555803
100
AcDbArc
 50
21.9403208981
 51
45.6775851695
  0
ARC
  5
E6
330
1F
100
AcDbEntity
  8
0
  6
Continuous
 62
     7
370
    25
100
AcDbCircle
 10
585.5645505397
 20
-399.1453099577
 30
0.0
 40
63.35222214539985
100
AcDbArc
 50
251.6784502978
 51
277.110113127
  0
ARC
  5
E7
330
1F
100
AcDbEntity
  8
0
  6
Continuous
 62
     7
370
    25
100
AcDbCircle
 10
734.5941042588
 20
-293.6815226572
 30
0.0
 40
54.45929437478526
100
AcDbArc
 50
23.499659842
 51
36.6676921901
  0
ARC
  5
E8
330
1F
100
AcDbEntity
  8
0
  6
Continuous
 62
     7
370
    25
100
AcDbCircle
 10
663.0544730078
 20
-418.6630338645
 30
0.0
 40
53.25680840391629
100
AcDbArc
 50
263.2761278128
 51
272.9321382927
  0
LWPOLYLINE
  5
E9
330
1F
100
AcDbEntity
  8
0
  6
Continuous
 62
     7
370
    25
100
AcDbPolyline
 90
       61
 70
   128
 43
0.0
 10
856.5033988434
 20
-302.2404555449
 10
858.9539535931
 20
-303.7706759881
 10
862.05283224
 20
-306.071336593
 10
864.9588363714
 20
-308.6680060103
 10
867.66372101
 20
-311.553319144
 10
870.1598206979
 20
-314.7190957358
 10
872.4400600327
 20
-318.1563677434
 10
874.49798001
 20
-321.8553854266
 10
876.3277432913
 20
-325.8056660169
 10
877.9241658141
 20
-329.9960089307
 10
879.2827167923
 20
-334.4145444379
 10
880.3995503259
 20
-339.0487397491
 10
881.2714948646
 20
-343.8854644147
 10
881.8960900861
 20
-348.9110024948
 10
882.2715552861
 20
-354.1111122538
 10
882.3968262566
 20
-359.4710546801
 10
882.2715552861
 20
-364.9756318903
 10
881.8960900861
 20
-370.6092445418
 10
881.2714948646
 20
-376.3559249147
 10
880.3995503259
 20
-382.1993753159
 10
879.2827167923
 20
-388.123039178
 10
877.9241658141
 20
-394.110124257
 10
876.3277432913
 20
-400.1436573822
 10
874.49798001
 20
-406.2065376892
 10
872.4400600327
 20
-412.2815792031
 10
870.1598206979
 20
-418.3515595079
 10
867.66372101
 20
-424.3992714556
 10
864.9588363714
 20
-430.4075779183
 10
862.05283224
 20
-436.3594482883
 10
858.9539535931
 20
-442.2379980213
 10
855.6709775119
 20
-448.0265768454
 10
852.2132131815
 20
-453.7087748449
 10
848.5904597444
 20
-459.2684832935
 10
844.8129904947
 20
-464.6899402801
 10
840.8915054636
 20
-469.9577885005
 10
836.837128785
 20
-475.0570767769
 10
832.6613507434
 20
-479.9733665181
 10
828.3760040666
 20
-484.692714987
 10
823.9932402179
 20
-489.2017498233
 10
819.5254819807
 20
-493.487678165
 10
814.9853931661
 20
-497.538364973
 10
810.3858430507
 20
-501.3423231422
 10
805.7398681817
 20
-504.8887659691
 10
801.0606407663
 20
-508.1676436517
 10
796.3614225739
 20
-511.1696638174
 10
791.6555346426
 20
-513.8863150945
 10
786.9563164502
 20
-516.3098967666
 10
782.2770890348
 20
-518.4335400619
 10
777.6311141658
 20
-520.2512256401
 10
773.0315640505
 20
-521.7577949964
 10
768.4914752358
 20
-522.9489831573
 10
764.0237169987
 20
-523.8214186773
 10
759.6409531499
 20
-524.3726152708
 10
755.3556064731
 20
-524.601022759
 10
751.1798284315
 20
-524.5059837213
 10
747.1254517529
 20
-524.0877791184
 10
743.2039667219
 20
-523.3475811412
 10
739.4264974722
 20
-522.2874973158
 10
735.803744035
 20
-520.9105309536
 10
732.3459797047
 20
-519.2205826725
 10
731.5135583732
 20
-518.7526677931
  0
LWPOLYLINE
  5
EA
330
1F
100
AcDbEntity
  8
0
  6
Continuous
 62
     1
370
    25
100
AcDbPolyline
 90
       63
 70
   128
 43
0.0
 10
722.4640873572
 20
-188.7006696086
 10
724.1537176355
 20
-190.2902533896
 10
727.1853193755
 20
-193.5050388302
 10
730.0104963881
 20
-196.9987731083
 10
732.6229477197
 20
-200.7636563253
 10
735.0168465682
 20
-204.7912924241
 10
737.1868402841
 20
-209.0726952729
 10
739.1281030531
 20
-213.5983038795
 10
740.8362832131
 20
-218.3580340976
 10
742.3075875477
 20
-223.3412482163
 10
743.5387286029
 20
-228.5368370852
 10
744.5269457599
 20
-233.9332064282
 10
745.2700473827
 20
-239.518313349
 10
745.7663686708
 20
-245.2796975072
 10
746.0148138061
 20
-251.2044957602
 10
746.0148138061
 20
-257.2794957723
 10
745.7663686708
 20
-263.4911426727
 10
745.2700473827
 20
-269.8255671925
 10
744.5269457599
 20
-276.2686409848
 10
743.5387286029
 20
-282.805981571
 10
742.3075875477
 20
-289.4230156459
 10
740.8362832131
 20
-296.1049615908
 10
739.1281030531
 20
-302.8369146417
 10
737.1868402841
 20
-309.6038575332
 10
735.0168465682
 20
-316.390681797
 10
732.6229477197
 20
-323.1822546743
 10
730.0104963881
 20
-329.9634099955
 10
727.1853193755
 20
-336.7190242214
 10
724.1537176355
 20
-343.4340225268
 10
720.9224504691
 20
-350.093424427
 10
717.4987407923
 20
-356.6823589875
 10
713.8902224532
 20
-363.1861317397
 10
710.1049454999
 20
-369.5902277233
 10
706.1513603753
 20
-375.8803571125
 10
702.0382863076
 20
-382.0424795481
 10
697.7749007731
 20
-388.0628649732
 10
693.3707184227
 20
-393.9280449619
 10
688.835570009
 20
-399.6249708935
 10
684.1795655071
 20
-405.1408953167
 10
679.413104652
 20
-410.4635362107
 10
674.5468189863
 20
-415.5810009334
 10
669.5915639575
 20
-420.4818759556
 10
664.5584031133
 20
-425.1552359844
 10
659.4585633207
 20
-429.5906333133
 10
654.3034255458
 20
-433.7781761483
 10
649.1044919268
 20
-437.7085354496
 10
643.8733640426
 20
-441.3729209745
 10
638.6217149236
 20
-444.7631704393
 10
633.361262217
 20
-447.8717163416
 10
628.1037446433
 20
-450.6916117184
 10
622.8608940082
 20
-453.2165828063
 10
617.644407544
 20
-455.4409720033
 10
612.4659283175
 20
-457.3598343513
 10
607.3370071994
 20
-458.9688864862
 10
602.2690936445
 20
-460.2645241278
 10
597.2734909108
 20
-461.2438722661
 10
592.361352108
 20
-461.9047387726
 10
587.5436327826
 20
-462.2456539401
 10
582.8310882835
 20
-462.265835501
 10
578.2342316152
 20
-461.9652737953
 10
573.7633149986
 20
-461.3446085738
 10
569.4283219684
 20
-460.4052430668
 10
566.4215025754
 20
-459.5406005543
  0
LWPOLYLINE
  5
EB
330
1F
100
AcDbEntity
  8
0
  6
Continuous
 62
     1
370
    25
100
AcDbPolyline
 90
       30
 70
   128
 43
0.0
 10
536.4768621314
 20
-366.005912375
 10
536.6763326287
 20
-363.3126080353
 10
537.2945847495
 20
-357.3043331558
 10
538.1579524045
 20
-351.19756559
 10
539.2642439576
 20
-345.0077372059
 10
540.6106777169
 20
-338.7504767757
 10
542.1938503242
 20
-332.4415909617
 10
544.009757829
 20
-326.0970217323
 10
546.0538114932
 20
-319.732793131
 10
548.3208535961
 20
-313.3649808592
 10
550.8051574347
 20
-307.0096727326
 10
553.5004431286
 20
-300.6829200126
 10
556.3999039618
 20
-294.4007100323
 10
559.4962169193
 20
-288.1789023187
 10
562.7815584923
 20
-282.0332255521
 10
566.2476310202
 20
-275.9791954388
 10
569.885678495
 20
-270.0321116704
 10
573.6865076355
 20
-264.2069910056
 10
577.6405247653
 20
-258.5185520639
 10
581.7377358128
 20
-252.9811605724
 10
585.9677937269
 20
-247.6088080774
 10
590.3200116472
 20
-242.415061755
 10
594.7833945147
 20
-237.4130522469
 10
599.3466680473
 20
-232.6154021789
 10
603.9983077161
 20
-228.0342276856
 10
608.7265598188
 20
-223.6811201602
 10
613.5194796752
 20
-219.5670633686
 10
618.364963237
 20
-215.7024395351
 10
623.2507694791
 20
-212.0970285849
 10
626.693797559
 20
-209.728656138
  0
LWPOLYLINE
  5
EC
330
1F
100
AcDbEntity
  8
0
  6
Continuous
 62
     1
370
    25
100
AcDbPolyline
 90
       51
 70
   128
 43
0.0
 10
738.8912061543
 20
-212.3979518812
 10
739.5115550808
 20
-213.9304523229
 10
741.2185867392
 20
-218.686988489
 10
742.6889006229
 20
-223.6668656036
 10
743.9192092778
 20
-228.8589714744
 10
744.9067731587
 20
-234.2517194318
 10
745.649379556
 20
-239.833080266
 10
746.1453636693
 20
-245.590602762
 10
746.3936402172
 20
-251.5114285311
 10
746.3936402172
 20
-257.5823551237
 10
746.1453636693
 20
-263.7898348934
 10
745.649379556
 20
-270.1200084573
 10
744.9067731587
 20
-276.5587643877
 10
743.9192092778
 20
-283.0917293317
 10
742.6889006229
 20
-289.7043193396
 10
741.2185867392
 20
-296.3817847302
 10
739.5115550808
 20
-303.1092176974
 10
737.5715988641
 20
-309.871622269
 10
735.4030486778
 20
-316.6539051838
 10
733.0107619462
 20
-323.4409154351
 10
730.4000597089
 20
-330.2175324779
 10
727.5767687677
 20
-336.9686206056
 10
724.5472006132
 20
-343.6791110778
 10
721.3181092778
 20
-350.3340386185
 10
717.896691336
 20
-356.9185596674
 10
714.2905911723
 20
-363.4179736732
 10
710.5078535666
 20
-369.8177748007
 10
706.5569184251
 20
-376.1036853904
 10
702.446604976
 20
-382.2616772506
 10
698.1860801588
 20
-388.2780142397
 10
693.7848480878
 20
-394.1392766005
 10
689.2527395155
 20
-399.8323670425
 10
684.5998591488
 20
-405.3446019928
 10
679.8365961859
 20
-410.6636690113
 10
674.9735716325
 20
-415.7777058734
 10
670.0216409364
 20
-420.6752990496
 10
664.9918544743
 20
-425.3455186833
 10
659.8954338448
 20
-429.7779444441
 10
654.7437534285
 20
-433.9626883396
 10
649.5483061442
 20
-437.8904023176
 10
644.3206869851
 20
-441.5523364394
 10
639.0725587743
 20
-444.9403099791
 10
633.8156338083
 20
-448.0467706903
 10
628.561641835
 20
-450.8647767903
 10
623.3223058519
 20
-453.3880474327
 10
618.1093188932
 20
-455.6109517741
 10
612.9343115134
 20
-457.5285277446
 10
607.8088306318
 20
-459.1364942614
 10
602.7443151665
 20
-460.4312652941
 10
597.7520631073
 20
-461.4099567069
 10
593.406075018
 20
-462.0103602211
  0
LWPOLYLINE
  5
ED
330
1F
100
AcDbEntity
  8
0
  6
Continuous
 62
     1
370
    25
100
AcDbPolyline
 90
       47
 70
   128
 43
0.0
 10
784.536677731
 20
-271.9662262334
 10
784.9599269204
 20
-272.9484402744
 10
786.5576981424
 20
-277.1423240299
 10
787.9173976222
 20
-281.5645919967
 10
789.0351741916
 20
-286.2027037804
 10
789.9078563001
 20
-291.0435137218
 10
790.5329783573
 20
-296.0732982762
 10
790.9087596586
 20
-301.2778023996
 10
791.0341412645
 20
-306.6422707312
 10
790.9087596586
 20
-312.1515015837
 10
790.5329783573
 20
-317.7898735625
 10
789.9078563001
 20
-323.5414086811
 10
789.0351741916
 20
-329.3897959381
 10
787.9173976222
 20
-335.3184650785
 10
786.5576981424
 20
-341.3106086489
 10
784.9599269204
 20
-347.3492397908
 10
783.1286200109
 20
-353.417242431
 10
781.068961476
 20
-359.4974153853
 10
778.7867939229
 20
-365.572524071
 10
776.2885816242
 20
-371.6253491729
 10
773.581410519
 20
-377.6387353131
 10
770.6729566021
 20
-383.5956275502
 10
767.5714543139
 20
-389.4791474225
 10
764.2857070774
 20
-395.2726172839
 10
760.8250188094
 20
-400.9596180927
 10
757.1992044574
 20
-406.5240259146
 10
753.4185425839
 20
-411.9500636302
 10
749.4937490252
 20
-417.2223526433
 10
745.4359479152
 20
-422.3259539439
 10
741.2566400751
 20
-427.2463985232
 10
736.9676740376
 20
-431.9697345199
 10
732.5812065346
 20
-436.482574365
 10
728.1096735203
 20
-440.7721297604
 10
723.5657480253
 20
-444.8262360101
 10
718.9623111803
 20
-448.6334113331
 10
714.312411386
 20
-452.1828500154
 10
709.6292300694
 20
-455.4644969329
 10
704.9260413475
 20
-458.4690525846
 10
700.2161774538
 20
-461.187999136
 10
695.5129887319
 20
-463.6136295979
 10
690.8298074153
 20
-465.7390687355
 10
686.179907621
 20
-467.5582900805
 10
681.576470776
 20
-469.0661298055
 10
677.032545281
 20
-470.2583282616
 10
672.5610122668
 20
-471.1314949928
 10
668.1745447637
 20
-471.6831627257
 10
665.7787255993
 20
-471.8501196014
  0
LWPOLYLINE
  5
EE
330
1F
100
AcDbEntity
  8
0
  6
Continuous
 62
     1
370
    25
100
AcDbPolyline
 90
       30
 70
   128
 43
0.0
 10
537.9038832991
 20
-365.0414540211
 10
538.0038240137
 20
-363.7856243338
 10
538.6308637524
 20
-357.738278456
 10
539.5064645302
 20
-351.5914128299
 10
540.6283820274
 20
-345.3608038081
 10
541.9937291849
 20
-339.0624527798
 10
543.5990078143
 20
-332.7125162114
 10
545.4400875244
 20
-326.3273071652
 10
547.5122584048
 20
-319.92320557
 10
549.8101888794
 20
-313.516655175
 10
552.3279889258
 20
-307.1240935935
 10
555.0591837347
 20
-300.7619492582
 10
557.9967716607
 20
-294.446534962
 10
561.133208418
 20
-288.1940752333
 10
564.4604439585
 20
-282.0206059581
 10
567.9699330086
 20
-275.9419926325
 10
571.6526772163
 20
-269.9738208594
 10
575.4992093456
 20
-264.1314237243
 10
579.4996670341
 20
-258.4297905463
 10
583.643771719
 20
-252.8835668761
 10
587.9208971262
 20
-247.5069723729
 10
592.3200534648
 20
-242.3138281787
 10
596.829950648
 20
-237.3174535024
 10
601.4390140973
 20
-232.5306869132
 10
606.1354137192
 20
-227.9657966094
 10
610.9070876126
 20
-223.6345154016
 10
615.7417934351
 20
-219.5479502225
 10
620.6271176226
 20
-215.7166011393
 10
625.5505201706
 20
-212.1502990002
 10
626.5722243159
 20
-211.446740838
  0
LWPOLYLINE
  5
EF
330
1F
100
AcDbEntity
  8
0
  6
Continuous
 62
     1
370
    25
100
AcDbPolyline
 90
       54
 70
   128
 43
0.0
 10
776.6677531127
 20
-259.0153934964
 10
776.6798387215
 20
-259.029441901
 10
779.1759384094
 20
-262.1952184928
 10
781.4561777442
 20
-265.6324905004
 10
783.5140977215
 20
-269.3315081836
 10
785.3438610028
 20
-273.2817887739
 10
786.9402835256
 20
-277.4721316877
 10
788.2988345038
 20
-281.8906671949
 10
789.4156680374
 20
-286.5248625061
 10
790.2876125761
 20
-291.3615871717
 10
790.9122077976
 20
-296.3871252518
 10
791.2876729976
 20
-301.5872350108
 10
791.4129439681
 20
-306.9471774371
 10
791.2876729976
 20
-312.4517546473
 10
790.9122077976
 20
-318.0853672988
 10
790.2876125761
 20
-323.8320476717
 10
789.4156680374
 20
-329.6754980729
 10
788.2988345038
 20
-335.599161935
 10
786.9402835256
 20
-341.586247014
 10
785.3438610028
 20
-347.6197801392
 10
783.5140977215
 20
-353.6826604462
 10
781.4561777442
 20
-359.7577019601
 10
779.1759384094
 20
-365.8276822649
 10
776.6798387215
 20
-371.8753942126
 10
773.9749540828
 20
-377.8837006753
 10
771.0689499514
 20
-383.8355710453
 10
767.9700713045
 20
-389.7141207783
 10
764.6870952233
 20
-395.5026996024
 10
761.229330893
 20
-401.1848976019
 10
757.6065774558
 20
-406.7446060504
 10
753.8291082061
 20
-412.1660630371
 10
749.9076231751
 20
-417.4339112575
 10
745.8532464965
 20
-422.5331995339
 10
741.6774684549
 20
-427.4494892751
 10
737.3921217781
 20
-432.168837744
 10
733.0093579293
 20
-436.6778725803
 10
728.5415996922
 20
-440.963800922
 10
724.0015108775
 20
-445.01448773
 10
719.4019607622
 20
-448.8184458992
 10
714.7559858932
 20
-452.3648887261
 10
710.0767584778
 20
-455.6437664087
 10
705.3775402854
 20
-458.6457865744
 10
700.6716523541
 20
-461.3624378515
 10
695.9724341617
 20
-463.7860195236
 10
691.2932067463
 20
-465.9096628189
 10
686.6472318773
 20
-467.7273483971
 10
682.0476817619
 20
-469.2339177534
 10
677.5075929473
 20
-470.4251059143
 10
673.0398347102
 20
-471.2975414343
 10
668.6570708614
 20
-471.8487380278
 10
664.3717241846
 20
-472.077145516
 10
660.195946143
 20
-471.9821064783
 10
656.1415694644
 20
-471.5639018754
 10
654.1572747631
 20
-471.2327622326
  0
ENDSEC
  0
SECTION
  2
OBJECTS
  0
DICTIONARY
  5
C
330
0
100
AcDbDictionary
281
     1
  3
ACAD_GROUP
350
D
  3
ACAD_LAYOUT
350
1A
  3
ACAD_MLINESTYLE
350
17
  3
ACAD_PLOTSETTINGS
350
19
  3
ACAD_PLOTSTYLENAME
350
E
  3
ACAD_SCALELIST
350
47
  0
DICTIONARY
  5
D
102
{ACAD_REACTORS
330
C
102
}
330
C
100
AcDbDictionary
281
     1
  0
DICTIONARY
  5
1A
102
{ACAD_REACTORS
330
C
102
}
330
C
100
AcDbDictionary
281
     1
  3
Layout1
350
1E
  3
Layout2
350
26
  3
Model
350
22
  0
DICTIONARY
  5
17
102
{ACAD_REACTORS
330
C
102
}
330
C
100
AcDbDictionary
281
     1
  3
Standard
350
18
  0
DICTIONARY
  5
19
102
{ACAD_REACTORS
330
C
102
}
330
C
100
AcDbDictionary
281
     1
  0
ACDBDICTIONARYWDFLT
  5
E
102
{ACAD_REACTORS
330
C
102
}
330
C
100
AcDbDictionary
281
     1
  3
Normal
350
F
100
AcDbDictionaryWithDefault
340
F
  0
DICTIONARY
  5
47
102
{ACAD_REACTORS
330
C
102
}
330
C
100
AcDbDictionary
281
     1
  3
A0
350
48
  3
A1
350
49
  3
A2
350
4A
  3
A3
350
4B
  3
A4
350
4C
  3
A5
350
4D
  3
A6
350
4E
  3
A7
350
4F
  3
A8
350
50
  3
A9
350
51
  3
B0
350
52
  3
B1
350
53
  3
B2
350
54
  3
B3
350
55
  3
B4
350
56
  3
B5
350
57
  3
B6
350
58
  3
B7
350
59
  3
B8
350
5A
  3
B9
350
5B
  3
C0
350
5C
  3
C1
350
5D
  3
C2
350
5E
  3
C3
350
5F
  3
C4
350
60
  3
C5
350
61
  3
C6
350
62
  3
C7
350
63
  3
C8
350
64
  3
C9
350
65
  3
D0
350
66
  3
D1
350
67
  3
D2
350
68
  0
LAYOUT
  5
1E
102
{ACAD_REACTORS
330
1A
102
}
330
1A
100
AcDbPlotSettings
  1

  2
none_device
  4

  6

 40
0.0
 41
0.0
 42
0.0
 43
0.0
 44
0.0
 45
0.0
 46
0.0
 47
0.0
 48
0.0
 49
0.0
140
0.0
141
0.0
142
1.0
143
1.0
 70
   688
 72
     1
 73
     0
 74
     5
  7

 75
    16
147
1.0
148
0.0
149
0.0
100
AcDbLayout
  1
Layout1
 70
     1
 71
     1
 10
0.0
 20
0.0
 11
420.0
 21
297.0
 12
0.0
 22
0.0
 32
0.0
 14
1.0000000000E+20
 24
1.0000000000E+20
 34
1.0000000000E+20
 15
-1.0000000000E+20
 25
-1.0000000000E+20
 35
-1.0000000000E+20
146
0.0
 13
0.0
 23
0.0
 33
0.0
 16
1.0
 26
0.0
 36
0.0
 17
0.0
 27
1.0
 37
0.0
 76
     0
330
1B
  0
LAYOUT
  5
26
102
{ACAD_REACTORS
330
1A
102
}
330
1A
100
AcDbPlotSettings
  1

  2
none_device
  4

  6

 40
0.0
 41
0.0
 42
0.0
 43
0.0
 44
0.0
 45
0.0
 46
0.0
 47
0.0
 48
0.0
 49
0.0
140
0.0
141
0.0
142
1.0
143
1.0
 70
   688
 72
     1
 73
     0
 74
     5
  7

 75
    16
147
1.0
148
0.0
149
0.0
100
AcDbLayout
  1
Layout2
 70
     1
 71
     2
 10
0.0
 20
0.0
 11
0.0
 21
0.0
 12
0.0
 22
0.0
 32
0.0
 14
0.0
 24
0.0
 34
0.0
 15
0.0
 25
0.0
 35
0.0
146
0.0
 13
0.0
 23
0.0
 33
0.0
 16
1.0
 26
0.0
 36
0.0
 17
0.0
 27
1.0
 37
0.0
 76
     0
330
23
  0
LAYOUT
  5
22
102
{ACAD_REACTORS
330
1A
102
}
330
1A
100
AcDbPlotSettings
  1

  2
none_device
  4
Letter_(8.50_x_11.00_Inches)
  6

 40
6.35
 41
6.35
 42
6.35000508
 43
6.35000508
 44
215.9
 45
279.4
 46
0.0
 47
0.0
 48
0.0
 49
0.0
140
0.0
141
0.0
142
1.0
143
1.0
 70
  1712
 72
     1
 73
     0
 74
     0
  7

 75
     0
147
1.0
148
0.0
149
0.0
100
AcDbLayout
  1
Model
 70
     1
 71
     0
 10
0.0
 20
0.0
 11
279.4
 21
215.9
 12
0.0
 22
0.0
 32
0.0
 14
0.0
 24
0.0
 34
0.0
 15
279.4
 25
215.9
 35
0.0
146
0.0
 13
0.0
 23
0.0
 33
0.0
 16
1.0
 26
0.0
 36
0.0
 17
0.0
 27
1.0
 37
0.0
 76
     0
330
1F
331
29
  0
MLINESTYLE
  5
18
102
{ACAD_REACTORS
330
17
102
}
330
17
100
AcDbMlineStyle
  2
Standard
 70
     0
  3

 62
   256
 51
90.0
 52
90.0
 71
     2
 49
0.5
 62
   256
  6
BYLAYER
 49
-0.5
 62
   256
  6
BYLAYER
  0
ACDBPLACEHOLDER
  5
F
102
{ACAD_REACTORS
330
E
102
}
330
E
  0
SCALE
  5
48
102
{ACAD_REACTORS
330
47
102
}
330
47
100
AcDbScale
 70
     0
300
1:1
140
1.0
141
1.0
290
     1
  0
SCALE
  5
49
102
{ACAD_REACTORS
330
47
102
}
330
47
100
AcDbScale
 70
     0
300
1:2
140
1.0
141
2.0
290
     0
  0
SCALE
  5
4A
102
{ACAD_REACTORS
330
47
102
}
330
47
100
AcDbScale
 70
     0
300
1:4
140
1.0
141
4.0
290
     0
  0
SCALE
  5
4B
102
{ACAD_REACTORS
330
47
102
}
330
47
100
AcDbScale
 70
     0
300
1:5
140
1.0
141
5.0
290
     0
  0
SCALE
  5
4C
102
{ACAD_REACTORS
330
47
102
}
330
47
100
AcDbScale
 70
     0
300
1:8
140
1.0
141
8.0
290
     0
  0
SCALE
  5
4D
102
{ACAD_REACTORS
330
47
102
}
330
47
100
AcDbScale
 70
     0
300
1:10
140
1.0
141
10.0
290
     0
  0
SCALE
  5
4E
102
{ACAD_REACTORS
330
47
102
}
330
47
100
AcDbScale
 70
     0
300
1:16
140
1.0
141
16.0
290
     0
  0
SCALE
  5
4F
102
{ACAD_REACTORS
330
47
102
}
330
47
100
AcDbScale
 70
     0
300
1:20
140
1.0
141
20.0
290
     0
  0
SCALE
  5
50
102
{ACAD_REACTORS
330
47
102
}
330
47
100
AcDbScale
 70
     0
300
1:30
140
1.0
141
30.0
290
     0
  0
SCALE
  5
51
102
{ACAD_REACTORS
330
47
102
}
330
47
100
AcDbScale
 70
     0
300
1:40
140
1.0
141
40.0
290
     0
  0
SCALE
  5
52
102
{ACAD_REACTORS
330
47
102
}
330
47
100
AcDbScale
 70
     0
300
1:50
140
1.0
141
50.0
290
     0
  0
SCALE
  5
53
102
{ACAD_REACTORS
330
47
102
}
330
47
100
AcDbScale
 70
     0
300
1:100
140
1.0
141
100.0
290
     0
  0
SCALE
  5
54
102
{ACAD_REACTORS
330
47
102
}
330
47
100
AcDbScale
 70
     0
300
2:1
140
2.0
141
1.0
290
     0
  0
SCALE
  5
55
102
{ACAD_REACTORS
330
47
102
}
330
47
100
AcDbScale
 70
     0
300
4:1
140
4.0
141
1.0
290
     0
  0
SCALE
  5
56
102
{ACAD_REACTORS
330
47
102
}
330
47
100
AcDbScale
 70
     0
300
8:1
140
8.0
141
1.0
290
     0
  0
SCALE
  5
57
102
{ACAD_REACTORS
330
47
102
}
330
47
100
AcDbScale
 70
     0
300
10:1
140
10.0
141
1.0
290
     0
  0
SCALE
  5
58
102
{ACAD_REACTORS
330
47
102
}
330
47
100
AcDbScale
 70
     0
300
100:1
140
100.0
141
1.0
290
     0
  0
SCALE
  5
59
102
{ACAD_REACTORS
330
47
102
}
330
47
100
AcDbScale
 70
     0
300
1/128" = 1'-0"
140
0.0078125
141
12.0
290
     0
  0
SCALE
  5
5A
102
{ACAD_REACTORS
330
47
102
}
330
47
100
AcDbScale
 70
     0
300
1/64" = 1'-0"
140
0.015625
141
12.0
290
     0
  0
SCALE
  5
5B
102
{ACAD_REACTORS
330
47
102
}
330
47
100
AcDbScale
 70
     0
300
1/32" = 1'-0"
140
0.03125
141
12.0
290
     0
  0
SCALE
  5
5C
102
{ACAD_REACTORS
330
47
102
}
330
47
100
AcDbScale
 70
     0
300
1/16" = 1'-0"
140
0.0625
141
12.0
290
     0
  0
SCALE
  5
5D
102
{ACAD_REACTORS
330
47
102
}
330
47
100
AcDbScale
 70
     0
300
3/32" = 1'-0"
140
0.09375
141
12.0
290
     0
  0
SCALE
  5
5E
102
{ACAD_REACTORS
330
47
102
}
330
47
100
AcDbScale
 70
     0
300
1/8" = 1'-0"
140
0.125
141
12.0
290
     0
  0
SCALE
  5
5F
102
{ACAD_REACTORS
330
47
102
}
330
47
100
AcDbScale
 70
     0
300
3/16" = 1'-0"
140
0.1875
141
12.0
290
     0
  0
SCALE
  5
60
102
{ACAD_REACTORS
330
47
102
}
330
47
100
AcDbScale
 70
     0
300
1/4" = 1'-0"
140
0.25
141
12.0
290
     0
  0
SCALE
  5
61
102
{ACAD_REACTORS
330
47
102
}
330
47
100
AcDbScale
 70
     0
300
3/8" = 1'-0"
140
0.375
141
12.0
290
     0
  0
SCALE
  5
62
102
{ACAD_REACTORS
330
47
102
}
330
47
100
AcDbScale
 70
     0
300
1/2" = 1'-0"
140
0.5
141
12.0
290
     0
  0
SCALE
  5
63
102
{ACAD_REACTORS
330
47
102
}
330
47
100
AcDbScale
 70
     0
300
3/4" = 1'-0"
140
0.75
141
12.0
290
     0
  0
SCALE
  5
64
102
{ACAD_REACTORS
330
47
102
}
330
47
100
AcDbScale
 70
     0
300
1" = 1'-0"
140
1.0
141
12.0
290
     0
  0
SCALE
  5
65
102
{ACAD_REACTORS
330
47
102
}
330
47
100
AcDbScale
 70
     0
300
1-1/2" = 1'-0"
140
1.5
141
12.0
290
     0
  0
SCALE
  5
66
102
{ACAD_REACTORS
330
47
102
}
330
47
100
AcDbScale
 70
     0
300
3" = 1'-0"
140
3.0
141
12.0
290
     0
  0
SCALE
  5
67
102
{ACAD_REACTORS
330
47
102
}
330
47
100
AcDbScale
 70
     0
300
6" = 1'-0"
140
6.0
141
12.0
290
     0
  0
SCALE
  5
68
102
{ACAD_REACTORS
330
47
102
}
330
47
100
AcDbScale
 70
     0
300
1'-0" = 1'-0"
140
12.0
141
12.0
290
     0
  0
ENDSEC
  0
EOF
